ISO-10303-21;
HEADER;
FILE_DESCRIPTION (( 'STEP AP203' ),
    '1' );
FILE_NAME ('MQWP-25.4-670.STEP',
    '2020-12-22T09:30:38',
    ( '' ),
    ( '' ),
    'SwSTEP 2.0',
    'SolidWorks 2020',
    '' );
FILE_SCHEMA (( 'CONFIG_CONTROL_DESIGN' ));
ENDSEC;

DATA;
#1 = CARTESIAN_POINT ( 'NONE',  ( 0.000000000000000000, 0.000000000000000000, 0.000000000000000000 ) ) ;
#2 = CARTESIAN_POINT ( 'NONE',  ( 0.9999999999999995559, 0.000000000000000000, 0.000000000000000000 ) ) ;
#3 = CC_DESIGN_PERSON_AND_ORGANIZATION_ASSIGNMENT ( #137, #62, ( #16 ) ) ;
#4 = UNCERTAINTY_MEASURE_WITH_UNIT (LENGTH_MEASURE( 1.000000000000000082E-05 ), #167, 'distance_accuracy_value', 'NONE');
#5 = CC_DESIGN_APPROVAL ( #157, ( #117 ) ) ;
#6 = ADVANCED_FACE ( 'NONE', ( #63 ), #85, .F. ) ;
#7 = PERSON_AND_ORGANIZATION_ROLE ( 'creator' ) ;
#8 = PERSON_AND_ORGANIZATION ( #169, #98 ) ;
#9 = CC_DESIGN_PERSON_AND_ORGANIZATION_ASSIGNMENT ( #8, #174, ( #117 ) ) ;
#10 = ORIENTED_EDGE ( 'NONE', *, *, #61, .T. ) ;
#11 = DIRECTION ( 'NONE',  ( 1.000000000000000000, 0.000000000000000000, 0.000000000000000000 ) ) ;
#12 = CARTESIAN_POINT ( 'NONE',  ( 2.449293598294706907E-16, 3.673940397442059868E-16, -3.000000000000000000 ) ) ;
#13 = CARTESIAN_POINT ( 'NONE',  ( 1.224646799147353454E-16, 3.000000000000000000, 0.000000000000000000 ) ) ;
#14 = ORIENTED_EDGE ( 'NONE', *, *, #51, .T. ) ;
#15 = PRODUCT_DEFINITION ( 'UNKNOWN', '', #117, #165 ) ;
#16 = SECURITY_CLASSIFICATION ( '', '', #164 ) ;
#17 = FACE_OUTER_BOUND ( 'NONE', #163, .T. ) ;
#18 = DIRECTION ( 'NONE',  ( -1.000000000000000000, -0.000000000000000000, -0.000000000000000000 ) ) ;
#19 = CC_DESIGN_PERSON_AND_ORGANIZATION_ASSIGNMENT ( #134, #55, ( #117 ) ) ;
#20 = CARTESIAN_POINT ( 'NONE',  ( 0.9999999999999995559, 0.000000000000000000, 3.000000000000000000 ) ) ;
#21 = APPROVAL_PERSON_ORGANIZATION ( #24, #45, #146 ) ;
#22 = EDGE_CURVE ( 'NONE', #84, #93, #160, .T. ) ;
#23 = EDGE_CURVE ( 'NONE', #93, #84, #58, .T. ) ;
#24 = PERSON_AND_ORGANIZATION ( #169, #98 ) ;
#25 = ORIENTED_EDGE ( 'NONE', *, *, #31, .F. ) ;
#26 = VERTEX_POINT ( 'NONE', #12 ) ;
#27 = MECHANICAL_CONTEXT ( 'NONE', #145, 'mechanical' ) ;
#28 = CARTESIAN_POINT ( 'NONE',  ( 0.9999999999999995559, 0.000000000000000000, 0.000000000000000000 ) ) ;
#29 = ADVANCED_FACE ( 'NONE', ( #90 ), #34, .F. ) ;
#30 = DATE_TIME_ROLE ( 'classification_date' ) ;
#31 = EDGE_CURVE ( 'NONE', #93, #26, #141, .T. ) ;
#32 = DIRECTION ( 'NONE',  ( -1.000000000000000000, -0.000000000000000000, -0.000000000000000000 ) ) ;
#33 = DIRECTION ( 'NONE',  ( 0.000000000000000000, 0.000000000000000000, 1.000000000000000000 ) ) ;
#34 = PLANE ( 'NONE',  #171 ) ;
#35 = PRODUCT ( 'MQWP-25.4-670', 'MQWP-25.4-670', '', ( #27 ) ) ;
#36 = CC_DESIGN_PERSON_AND_ORGANIZATION_ASSIGNMENT ( #86, #7, ( #15 ) ) ;
#37 = AXIS2_PLACEMENT_3D ( 'NONE', #73, #74, #92 ) ;
#38 = ORIENTED_EDGE ( 'NONE', *, *, #61, .F. ) ;
#39 = APPROVAL_DATE_TIME ( #64, #45 ) ;
#40 = DIRECTION ( 'NONE',  ( -1.000000000000000000, -0.000000000000000000, -0.000000000000000000 ) ) ;
#41 = DATE_AND_TIME ( #88, #70 ) ;
#42 = VERTEX_POINT ( 'NONE', #153 ) ;
#43 = APPROVAL_STATUS ( 'not_yet_approved' ) ;
#44 = CC_DESIGN_SECURITY_CLASSIFICATION ( #16, ( #117 ) ) ;
#45 = APPROVAL ( #120, 'UNSPECIFIED' ) ;
#46 = DIRECTION ( 'NONE',  ( -1.000000000000000000, 0.000000000000000000, -0.000000000000000000 ) ) ;
#47 = LOCAL_TIME ( 17, 30, 38.00000000000000000, #99 ) ;
#48 = CARTESIAN_POINT ( 'NONE',  ( 0.000000000000000000, 0.000000000000000000, 0.000000000000000000 ) ) ;
#49 = FACE_OUTER_BOUND ( 'NONE', #69, .T. ) ;
#50 = EDGE_CURVE ( 'NONE', #26, #42, #128, .T. ) ;
#51 = EDGE_CURVE ( 'NONE', #84, #42, #140, .T. ) ;
#52 = DATE_AND_TIME ( #107, #57 ) ;
#53 = DATE_AND_TIME ( #131, #155 ) ;
#54 = APPLICATION_PROTOCOL_DEFINITION ( 'international standard', 'config_control_design', 1994, #114 ) ;
#55 = PERSON_AND_ORGANIZATION_ROLE ( 'design_supplier' ) ;
#56 = DIRECTION ( 'NONE',  ( 0.000000000000000000, 0.000000000000000000, 1.000000000000000000 ) ) ;
#57 = LOCAL_TIME ( 17, 30, 38.00000000000000000, #67 ) ;
#58 = CIRCLE ( 'NONE', #80, 3.000000000000000000 ) ;
#59 =( NAMED_UNIT ( * ) SI_UNIT ( $, .STERADIAN. ) SOLID_ANGLE_UNIT ( ) );
#60 = AXIS2_PLACEMENT_3D ( 'NONE', #1, #56, #11 ) ;
#61 = EDGE_CURVE ( 'NONE', #42, #26, #66, .T. ) ;
#62 = PERSON_AND_ORGANIZATION_ROLE ( 'classification_officer' ) ;
#63 = FACE_OUTER_BOUND ( 'NONE', #132, .T. ) ;
#64 = DATE_AND_TIME ( #121, #47 ) ;
#65 = ORIENTED_EDGE ( 'NONE', *, *, #23, .F. ) ;
#66 = CIRCLE ( 'NONE', #37, 3.000000000000000000 ) ;
#67 = COORDINATED_UNIVERSAL_TIME_OFFSET ( 8, 0, .AHEAD. ) ;
#68 = ORIENTED_EDGE ( 'NONE', *, *, #23, .T. ) ;
#69 = EDGE_LOOP ( 'NONE', ( #25, #68, #14, #82 ) ) ;
#70 = LOCAL_TIME ( 17, 30, 38.00000000000000000, #83 ) ;
#71 = VECTOR ( 'NONE', #32, 1000.000000000000000 ) ;
#72 = CYLINDRICAL_SURFACE ( 'NONE', #106, 3.000000000000000000 ) ;
#73 = CARTESIAN_POINT ( 'NONE',  ( 2.449293598294706907E-16, 0.000000000000000000, 0.000000000000000000 ) ) ;
#74 = DIRECTION ( 'NONE',  ( -1.000000000000000000, -0.000000000000000000, -0.000000000000000000 ) ) ;
#75 = AXIS2_PLACEMENT_3D ( 'NONE', #48, #166, #115 ) ;
#76 = ADVANCED_FACE ( 'NONE', ( #49 ), #72, .T. ) ;
#77 = CC_DESIGN_APPROVAL ( #125, ( #16 ) ) ;
#78 = AXIS2_PLACEMENT_3D ( 'NONE', #124, #18, #33 ) ;
#79 = ADVANCED_FACE ( 'NONE', ( #17 ), #100, .T. ) ;
#80 = AXIS2_PLACEMENT_3D ( 'NONE', #28, #40, #87 ) ;
#81 = APPROVAL_DATE_TIME ( #52, #157 ) ;
#82 = ORIENTED_EDGE ( 'NONE', *, *, #50, .F. ) ;
#83 = COORDINATED_UNIVERSAL_TIME_OFFSET ( 8, 0, .AHEAD. ) ;
#84 = VERTEX_POINT ( 'NONE', #20 ) ;
#85 = PLANE ( 'NONE',  #130 ) ;
#86 = PERSON_AND_ORGANIZATION ( #169, #98 ) ;
#87 = DIRECTION ( 'NONE',  ( 0.000000000000000000, 0.000000000000000000, 1.000000000000000000 ) ) ;
#88 = CALENDAR_DATE ( 2020, 22, 12 ) ;
#89 = APPROVAL_PERSON_ORGANIZATION ( #109, #125, #162 ) ;
#90 = FACE_OUTER_BOUND ( 'NONE', #147, .T. ) ;
#91 = DIRECTION ( 'NONE',  ( -1.000000000000000000, -0.000000000000000000, -0.000000000000000000 ) ) ;
#92 = DIRECTION ( 'NONE',  ( 0.000000000000000000, 0.000000000000000000, 1.000000000000000000 ) ) ;
#93 = VERTEX_POINT ( 'NONE', #142 ) ;
#94 = APPROVAL_ROLE ( '' ) ;
#95 = DIRECTION ( 'NONE',  ( 1.000000000000000000, 0.000000000000000000, 0.000000000000000000 ) ) ;
#96 = APPROVAL_DATE_TIME ( #41, #125 ) ;
#97 = ORIENTED_EDGE ( 'NONE', *, *, #22, .F. ) ;
#98 = ORGANIZATION ( 'UNSPECIFIED', 'UNSPECIFIED', '' ) ;
#99 = COORDINATED_UNIVERSAL_TIME_OFFSET ( 8, 0, .AHEAD. ) ;
#100 = CYLINDRICAL_SURFACE ( 'NONE', #75, 3.000000000000000000 ) ;
#101 = CARTESIAN_POINT ( 'NONE',  ( 0.000000000000000000, 3.673940397442059868E-16, -3.000000000000000000 ) ) ;
#102 = CARTESIAN_POINT ( 'NONE',  ( 0.9999999999999997780, 3.000000000000000000, 0.000000000000000000 ) ) ;
#103 = CARTESIAN_POINT ( 'NONE',  ( 0.000000000000000000, 0.000000000000000000, 3.000000000000000000 ) ) ;
#104 = LOCAL_TIME ( 17, 30, 38.00000000000000000, #110 ) ;
#105 = CLOSED_SHELL ( 'NONE', ( #79, #76, #29, #6 ) ) ;
#106 = AXIS2_PLACEMENT_3D ( 'NONE', #143, #170, #127 ) ;
#107 = CALENDAR_DATE ( 2020, 22, 12 ) ;
#108 = AXIS2_PLACEMENT_3D ( 'NONE', #2, #161, #150 ) ;
#109 = PERSON_AND_ORGANIZATION ( #169, #98 ) ;
#110 = COORDINATED_UNIVERSAL_TIME_OFFSET ( 8, 0, .AHEAD. ) ;
#111 = ORIENTED_EDGE ( 'NONE', *, *, #31, .T. ) ;
#112 = SHAPE_DEFINITION_REPRESENTATION ( #139, #149 ) ;
#113 = DIRECTION ( 'NONE',  ( -0.000000000000000000, 0.000000000000000000, 1.000000000000000000 ) ) ;
#114 = APPLICATION_CONTEXT ( 'configuration controlled 3d designs of mechanical parts and assemblies' ) ;
#115 = DIRECTION ( 'NONE',  ( 0.000000000000000000, 0.000000000000000000, 1.000000000000000000 ) ) ;
#116 = CC_DESIGN_APPROVAL ( #45, ( #15 ) ) ;
#117 = PRODUCT_DEFINITION_FORMATION_WITH_SPECIFIED_SOURCE ( 'ANY', '', #35, .NOT_KNOWN. ) ;
#118 = CALENDAR_DATE ( 2020, 22, 12 ) ;
#119 = DIRECTION ( 'NONE',  ( 0.000000000000000000, 0.000000000000000000, -1.000000000000000000 ) ) ;
#120 = APPROVAL_STATUS ( 'not_yet_approved' ) ;
#121 = CALENDAR_DATE ( 2020, 22, 12 ) ;
#122 = CC_DESIGN_DATE_AND_TIME_ASSIGNMENT ( #148, #30, ( #16 ) ) ;
#123 = PERSON_AND_ORGANIZATION ( #169, #98 ) ;
#124 = CARTESIAN_POINT ( 'NONE',  ( 2.449293598294706907E-16, 0.000000000000000000, 0.000000000000000000 ) ) ;
#125 = APPROVAL ( #43, 'UNSPECIFIED' ) ;
#126 =( NAMED_UNIT ( * ) PLANE_ANGLE_UNIT ( ) SI_UNIT ( $, .RADIAN. ) );
#127 = DIRECTION ( 'NONE',  ( 0.000000000000000000, 0.000000000000000000, 1.000000000000000000 ) ) ;
#128 = CIRCLE ( 'NONE', #78, 3.000000000000000000 ) ;
#129 = APPROVAL_PERSON_ORGANIZATION ( #172, #157, #94 ) ;
#130 = AXIS2_PLACEMENT_3D ( 'NONE', #13, #95, #119 ) ;
#131 = CALENDAR_DATE ( 2020, 22, 12 ) ;
#132 = EDGE_LOOP ( 'NONE', ( #10, #173 ) ) ;
#133 = APPROVAL_STATUS ( 'not_yet_approved' ) ;
#134 = PERSON_AND_ORGANIZATION ( #169, #98 ) ;
#135 =( GEOMETRIC_REPRESENTATION_CONTEXT ( 3 ) GLOBAL_UNCERTAINTY_ASSIGNED_CONTEXT ( ( #4 ) ) GLOBAL_UNIT_ASSIGNED_CONTEXT ( ( #167, #126, #59 ) ) REPRESENTATION_CONTEXT ( 'NONE', 'WORKASPACE' ) );
#136 = ORIENTED_EDGE ( 'NONE', *, *, #22, .T. ) ;
#137 = PERSON_AND_ORGANIZATION ( #169, #98 ) ;
#138 = ORIENTED_EDGE ( 'NONE', *, *, #51, .F. ) ;
#139 = PRODUCT_DEFINITION_SHAPE ( 'NONE', 'NONE',  #15 ) ;
#140 = LINE ( 'NONE', #103, #144 ) ;
#141 = LINE ( 'NONE', #101, #71 ) ;
#142 = CARTESIAN_POINT ( 'NONE',  ( 0.9999999999999995559, 3.673940397442059868E-16, -3.000000000000000000 ) ) ;
#143 = CARTESIAN_POINT ( 'NONE',  ( 0.000000000000000000, 0.000000000000000000, 0.000000000000000000 ) ) ;
#144 = VECTOR ( 'NONE', #91, 1000.000000000000000 ) ;
#145 = APPLICATION_CONTEXT ( 'configuration controlled 3d designs of mechanical parts and assemblies' ) ;
#146 = APPROVAL_ROLE ( '' ) ;
#147 = EDGE_LOOP ( 'NONE', ( #97, #65 ) ) ;
#148 = DATE_AND_TIME ( #118, #104 ) ;
#149 = ADVANCED_BREP_SHAPE_REPRESENTATION ( 'MQWP-25.4-670', ( #168, #60 ), #135 ) ;
#150 = DIRECTION ( 'NONE',  ( 0.000000000000000000, 0.000000000000000000, 1.000000000000000000 ) ) ;
#151 = DATE_TIME_ROLE ( 'creation_date' ) ;
#152 = CC_DESIGN_PERSON_AND_ORGANIZATION_ASSIGNMENT ( #123, #159, ( #35 ) ) ;
#153 = CARTESIAN_POINT ( 'NONE',  ( 2.449293598294706907E-16, 0.000000000000000000, 3.000000000000000000 ) ) ;
#154 = CC_DESIGN_DATE_AND_TIME_ASSIGNMENT ( #53, #151, ( #15 ) ) ;
#155 = LOCAL_TIME ( 17, 30, 38.00000000000000000, #175 ) ;
#156 = PRODUCT_RELATED_PRODUCT_CATEGORY ( 'detail', '', ( #35 ) ) ;
#157 = APPROVAL ( #133, 'UNSPECIFIED' ) ;
#158 = APPLICATION_PROTOCOL_DEFINITION ( 'international standard', 'config_control_design', 1994, #145 ) ;
#159 = PERSON_AND_ORGANIZATION_ROLE ( 'design_owner' ) ;
#160 = CIRCLE ( 'NONE', #108, 3.000000000000000000 ) ;
#161 = DIRECTION ( 'NONE',  ( -1.000000000000000000, -0.000000000000000000, -0.000000000000000000 ) ) ;
#162 = APPROVAL_ROLE ( '' ) ;
#163 = EDGE_LOOP ( 'NONE', ( #136, #111, #38, #138 ) ) ;
#164 = SECURITY_CLASSIFICATION_LEVEL ( 'unclassified' ) ;
#165 = DESIGN_CONTEXT ( 'detailed design', #114, 'design' ) ;
#166 = DIRECTION ( 'NONE',  ( -1.000000000000000000, -0.000000000000000000, -0.000000000000000000 ) ) ;
#167 =( LENGTH_UNIT ( ) NAMED_UNIT ( * ) SI_UNIT ( .MILLI., .METRE. ) );
#168 = MANIFOLD_SOLID_BREP ( 'Ðý×', #105 ) ;
#169 = PERSON ( 'UNSPECIFIED', 'UNSPECIFIED', 'UNSPECIFIED', ('UNSPECIFIED'), ('UNSPECIFIED'), ('UNSPECIFIED') ) ;
#170 = DIRECTION ( 'NONE',  ( -1.000000000000000000, -0.000000000000000000, -0.000000000000000000 ) ) ;
#171 = AXIS2_PLACEMENT_3D ( 'NONE', #102, #46, #113 ) ;
#172 = PERSON_AND_ORGANIZATION ( #169, #98 ) ;
#173 = ORIENTED_EDGE ( 'NONE', *, *, #50, .T. ) ;
#174 = PERSON_AND_ORGANIZATION_ROLE ( 'creator' ) ;
#175 = COORDINATED_UNIVERSAL_TIME_OFFSET ( 8, 0, .AHEAD. ) ;
ENDSEC;
END-ISO-10303-21;
